WITH REGRET, THIS SITE AND DOMAIN IS FOR SALE, FOR ONLY £1,500 / $2,000 PLEASE CONTACT SHREDACADEMY AT HOTMAIL . CO.UK
Unfortunately after setting up and running this site for a long time, I have not been able to maintain it for years now. I do not have time to deal with customers and site problems. DIGITAL DOWNLOAD orders should still work in the mean time, but please do not order physical items. I'm sorry to all customers who have tried to reach me recently.
 
Shred Academy
Shred AcademyContactHome
Guitar lessons, tools, DVDs, downloads, and more Artists
Instructional Guitar Media
Shred Academy Shred Academy Guitar lessons, tools, DVDs, downloads, and more
Shred Academy
Shred AcademyShred Academy
Shred Academy - Free Guitar Lesson by Zack Kim


 
 

 

Dear Tiesto

By Zack Kim

 

Dear Tiesto is based on one single pattern throughout the song so after learning one bar you should be able to get through the entire song pretty smoothly without learning new patterns.

The bass note (Left Hand) should be played from the top over the neck to avoid clashes between the right hands unless using a double neck. If double neck is available, the chords can be added during the chorus.

Have Fun :)


(Verse)
--------------------------------------------------------------------------------------------------------------------
------------------------------------------------------------------8--------8--------8---------7--------7--------7---
(R)-------9--------9--------9---------9--------9--------9-----------------------------------------------------------
(R)----------9--------9------------------9--------9------------------9--------9------------------7--------7---------
(L)----7--------7--------7---------7--------7--------7---------7--------7--------7---------7--------7--------7------
--------------------------------------------------------------------------------------------------------------------

---------------------------------------------------------------------------------------------------------------------
---------------------------------------------------------------------------------------------------------------------
(R)-------7--------7--------7---------7--------7--------7---------9--------9--------9---------9--------9--------9----
(R)----------7--------7------------------7--------7------------------9--------9------------------9--------9----------
(L)----7--------7--------7---------7--------7--------7---------7--------7--------7---------7--------7--------7-------
---------------------------------------------------------------------------------------------------------------------

---------------------------------------------------------------------------------------------------------------------
------------------------------------------------------------------8--------8--------8---------7--------7--------7----
(R)-------9--------9--------9---------9--------9--------9------------------------------------------------------------
(R)----------9--------9------------------9--------9------------------9--------9------------------7--------7----------
(L)----3--------3--------3---------3--------3--------3---------3--------3--------3---------3--------3--------3-------
---------------------------------------------------------------------------------------------------------------------

---------------------------------------------------------------------------------------------------------------------
---------------------------------------------------------------------------------------------------------------------
(R)-------7--------7--------7---------7--------7--------7---------9--------9--------9---------9--------9--------9----
(R)----------7--------7------------------7--------7------------------9--------9------------------9--------9----------
(L)----3--------3--------3---------3--------3--------3---------3--------3--------3---------3--------3--------3-------
---------------------------------------------------------------------------------------------------------------------

--------------------------------------------------------------------------------------------------------------------
------------------------------------------------------------------8--------8--------8---------7--------7--------7---
(R)-------9--------9--------9---------9--------9--------9-----------------------------------------------------------
(R)----------9--------9------------------9--------9------------------9--------9------------------7--------7---------
(L)----7--------7--------7---------7--------7--------7---------7--------7--------7---------7--------7--------7------
--------------------------------------------------------------------------------------------------------------------

---------------------------------------------------------------------------------------------------------------------
---------------------------------------------------------------------------------------------------------------------
(R)-------7--------7--------7---------7--------7--------7---------9--------9--------9---------9--------9--------9----
(R)----------7--------7------------------7--------7------------------9--------9------------------9--------9----------
(L)----7--------7--------7---------7--------7--------7---------7--------7--------7---------7--------7--------7-------
---------------------------------------------------------------------------------------------------------------------

--------------------------------------------------------------------------------------------------------------------
------------------------------------------------------------------8--------8--------8---------7--------7--------7---
(R)-------9--------9--------9---------9--------9--------9-----------------------------------------------------------
(R)----------9--------9------------------9--------9------------------9--------9------------------7--------7---------
(L)----5--------5--------5---------5--------5--------5---------5--------5--------5---------5--------5--------5------
--------------------------------------------------------------------------------------------------------------------

---------------------------------------------------------------------------------------------------------------------
---------------------------------------------------------------------------------------------------------------------
(R)-------7--------7--------7---------7--------7--------7---------9--------9--------9---------9--------9--------9----
(R)----------7--------7------------------7--------7------------------9--------9------------------9--------9----------
(L)----5--------5--------5---------5--------5--------5---------5--------5--------5---------5--------5--------5-------
---------------------------------------------------------------------------------------------------------------------

(Chorus)(E minor7) (D dominant7)
---------------------------------------------------------------------------------------------------------------------
----------8--------8--------8---------8--------8--------8---------7--------7--------7---------7--------7--------7----
(R)------------------------------------------------------------------------------------------------------------------
(R)----------9--------9------------------9--------9------------------7--------7------------------7--------7----------
(L)----7--------7--------7---------7--------7--------7---------5--------5--------5---------5--------5--------5-------
---------------------------------------------------------------------------------------------------------------------

(C dominant7)
---------------------------------------------------------------------------------------------------------------------
----------8--------8--------8--------8--------8---------8---------8--------8--------8--------10-------10-------10----
(R)------------------------------------------------------------------------------------------------------------------
(R)----------9--------9------------------9--------9------------------9--------9-----------------10-------10----------
(L)----3--------3--------3---------3--------3--------3---------3--------3--------3---------3--------3--------3-------
---------------------------------------------------------------------------------------------------------------------


(G dominant7)
---------------------------------------------------------------------------------------------------------------------
----------12-------12-------12--------12-------12-------12--------10-------10-------10--------8--------8-------8-----
(R)------------------------------------------------------------------------------------------------------------------
(R)---------12-------12-----------------12-------12-----------------10-------10------------------9--------9----------
(L)------------------------------------------------------------------------------------------------------------------
-------3--------3--------3---------3---------3--------3--------3--------3--------3---------3--------3--------3-------

(C dominant7) (D dominant7)
---------------------------------------------------------------------------------------------------------------------
----------8--------8--------8--------8--------8---------8---------7--------7--------7---------7-------7--------7-----
(R)------------------------------------------------------------------------------------------------------------------
(R)----------9--------9------------------9--------9------------------7--------7------------------7-------7-----------
(L)----3--------3--------3---------3--------3--------3---------5--------5--------5---------5--------5--------5-------
---------------------------------------------------------------------------------------------------------------------

 


Backend system (LAMP) designed & maintained by Daniel Moxon