WITH REGRET, THIS SITE AND DOMAIN IS FOR SALE, FOR ONLY £1,500 / $2,000 PLEASE CONTACT SHREDACADEMY AT HOTMAIL . CO.UK
Unfortunately after setting up and running this site for a long time, I have not been able to maintain it for years now. I do not have time to deal with customers and site problems. DIGITAL DOWNLOAD orders should still work in the mean time, but please do not order physical items. I'm sorry to all customers who have tried to reach me recently.
 
Shred Academy
Shred AcademyContactHome
Guitar lessons, tools, DVDs, downloads, and more Artists
Instructional Guitar Media
Shred Academy Shred Academy Guitar lessons, tools, DVDs, downloads, and more
Shred Academy
Shred AcademyShred Academy
Shred Academy - Free Guitar Lesson by Zack Kim
 



 
 

 

Mario Theme

By Zack Kim

 

Here is a video of zack playing the Mario theme. Zack is a very talented guitarist and has lots of videos on his website. Below is the tab - work on the other primer exercise from Zack before you try this, make sure you have it nailed!

 

--12-12--12-----12--15-------|----8-----------------------------------12-15-17--13-15--12-----10-------| (R)
-------------13-----12-------|--------8--5---10--12--11--10--------------------------------13----12----|
--11-11--11--11-11------12---|----9--------------------------------12-12-16-17--14-16--12-----10-------|
-----------------------------|-------10--5---10--12--11--10--------10----------------------14----12----|
-----------------------------|-------------------------------------------------------------------------| (x2)
-----------------------------|-------------------------------------------------------------------------|


-----------------------------|-------------------------------------------------------------------------| (L)
-----------------------------|-------------------------------------------------------------------------|
-----------------------------|-------------------------------------------------------------------------|
----------------------5------|-----5-----------------------------------10-14-15--12-14--10-----9-------|
--5--5---5----5---5----------|---------7--3----8--10---9---8--------7----------------------12----10----|
--------------------------3--|-------------------------------------------------------------------------|

 

 

---15-14-13-11----12--------------------------------15-14-13-11----12---20--20--20----------------- (R)
------------------------------13------13-15-----------------------------20--20--20-----------------
------------------------13-14------14-----------------------------------22--22--22-----------------
---------------------------------------------------------------------------------------------------
---------------------------------------------------------------------------------------------------
---------------------------------------------------------------------------------------------------


--------------------------------------------------------------------------------------------------- (L)
---------------------------------------------------------------------------------------------------
---------------------------------------------------------------------------------------------------
---------------10-------------10-10---------------------------------10-----------------------------
-------10-------------8----------------8----------------7--------10-----------------10-------------
--8------------------------------------------------8-----------------------------------------------

 

 

---15-14-13-11----12------------------------------------------------------------------------------- (R)
------------------------------13------13-15-----------16-----15----13------------------------------
------------------------13-14------14-----------------13-------------------------------------------
-------------------------------------------------------------15----14------------------------------
---------------------------------------------------------------------------------------------------
---------------------------------------------------------------------------------------------------


--------------------------------------------------------------------------------------------------- (L)
---------------------------------------------------------------------------------------------------
---------------------------------------------------------------------------------------------------
---------------10-------------10-10----------------------------------------------------------------
---------10-----------8----------------8---------------11----13---------10--10---------------------
--8------------------------------------------------8----------------8------------8-----------------

 

 

-------------------12---------------------------------------12------------------------------------- (R)
--13-13--13-13-15-----13---------------------13-13--13-13-15---------------------------------------
-------------------------14-12---------------------------------------------------------------------
---------------------------------------------------------------------------------------------------
---------------------------------------------------------------------------------------------------
---------------------------------------------------------------------------------------------------


--------------------------------------------------------------------------------------------------- (L)
---------------------------------------------------------------------------------------------------
---------------------------------------------------------------------------------------------------
---------------6----5-------------------------------------6----5-----------------------------------
---------6----------------3-------------------------6----------------3-----------------------------
---4----------------------------3-------------4----------------------------3-----------------------

 

 

-------------------12-------------------------12-12--12----12--15---------------------------------- (R)
--13-13--13-13-15-----13--------------------------------13-----12----------------------------------
-------------------------14-12----------------11-11--11-11-11------12------------------------------
---------------------------------------------------------------------------------------------------
---------------------------------------------------------------------------------------------------
---------------------------------------------------------------------------------------------------


--------------------------------------------------------------------------------------------------- (L)
---------------------------------------------------------------------------------------------------
---------------------------------------------------------------------------------------------------
---------------6----5-------------------------------------------5----------------------------------
---------6----------------3--------------------5--5---5--5--5--------------------------------------
---4----------------------------3-----------------------------------3------------------------------

 

 

--12-----------------13--13----------------------17-17-17--15--13--12------------------------------ (R)
-----13----------------------------------------------------------------13--------------------------
--------12---13--14---------14----------------16---------------------------14--12------------------
---------------------------------------------------------------------------------------------------
---------------------------------------------------------------------------------------------------
---------------------------------------------------------------------------------------------------


--------------------------------------------------------------------------------------------------- (L)
---------------------------------------------------------------------------------------------------
---------------------------------------------------------------------------------------------------
--------------10-------------10-10----------------------------9----10----------10-10---------------
--------9-10------8----8-----------8------------------8-10---------------10----------10------------
--8--------------------------------------------10--------------------------------------------------

 

 

--12-----------------13--13-----------------------13--13-13-12------------------------------------- (R)
-----13----------------------------------------12--------------15-13-------------------------------
--------12---13--14----------14--------------------------------------12----------------------------
------------------------------------------------------------------------14-------------------------
---------------------------------------------------------------------------15----------------------
---------------------------------------------------------------------------------------------------


---------------------------------------------------------------------------------------------------- (L)
----------------------------------------------------------------------------------------------------
----------------------------------------------------------------------------------------------------
--------------10-------------10-10---------------------------7--9-10--10----------------------------
--------9-10------8----8-----------8-----------10-----10--10----------------------------------------
--8------------------------------------------------------------------------8------------------------

 


--8-------------7-5-----6-4------------------------------------------------------------------------- (R)
------8--5----6-------6-------5-3-5-----------------------------------------------------------------
--9-------------------------------------------------------------------------------------------------
-----10--5------------------------------------------------------------------------------------------
----------------------------------------------------------------------------------------------------
----------------------------------------------------------------------------------------------------


--------------5-------4-------3--------------------------------------------------------------------- (L)
----------------------------------------------------------------------------------------------------
----------------------------------------------------------------------------------------------------
--5-----------3-------------------------------------------------------------------------------------
------7--3------------4-------3---------------------------------------------------------------------
----------------------------------------------------------------------------------------------------

 


Backend system (LAMP) designed & maintained by Daniel Moxon