WITH REGRET, THIS SITE AND DOMAIN IS FOR SALE, FOR ONLY £1,500 / $2,000 PLEASE CONTACT SHREDACADEMY AT HOTMAIL . CO.UK
Unfortunately after setting up and running this site for a long time, I have not been able to maintain it for years now. I do not have time to deal with customers and site problems. DIGITAL DOWNLOAD orders should still work in the mean time, but please do not order physical items. I'm sorry to all customers who have tried to reach me recently.
 
Shred Academy
Shred AcademyContactHome
Guitar lessons, tools, DVDs, downloads, and more Artists
Instructional Guitar Media
Shred Academy Shred Academy Guitar lessons, tools, DVDs, downloads, and more
Shred Academy
Shred AcademyShred Academy
Shred Academy - Free Guitar Lesson by Zack Kim


 
 

 

Chocobo Theme Tune (From the popular Final Fantasy games)

By Zack Kim

 

Here is a video of zack playing this much-sought-after piece from the popular game Finaly Fantasy VII. Below is the tab - work on the other primer exercise from Zack before you try this, make sure you have it nailed!

 

(R)Right hand (L)Left hand

--10--------------10------------------------------------------------------------(R)
------12--------------12----------12----------------12---------10------------------
----------12--10----------12---------------12--------------------------------------
-----------------------------------------------------------------------------------
-----------------------------------------------------------------------------------
-----------------------------------------------------------------------------------

--------------------------------------------------------------------------------(L)
-----------------------------------------------------------------------------------
------4--------------------------------4--------4----------------------------------
--5-------5----3---7------7--------5--------5--------3----7----3-------------------
-----------------------------------------------------------------------------------
-----------------------------------------------------------------------------------


-----------------------------------------------------10-12-13-------------------(R)
-----10--------------------------------------12------------------------------------
-1212--12-10-12----------10------12-12---------------------------------------------
-----------------------------------------------------------------------------------
-----------------------------------------------------------------------------------
-----------------------------------------------------------------------------------

--------------------------------------------------------------------------------(L)
-----------------------------------------------------------------------------------
------------4-------------------------------4-------4------------------------------
--5-------------5---3---7------7--------5--------5-------3----7----3---------------
-----------------------------------------------------------------------------------
-----------------------------------------------------------------------------------


---12---------------12-10-15-10-------------------------------------------------(R)
-----13-10----10-13--------------------12-13-10---------10-13-12-12-13-10-12-------
-----------11----------------------------------11----11----------------------------
--------------------------------------------------12-------------------------------
-----------------------------------------------------------------------------------
-----------------------------------------------------------------------------------

--------------------------------------------------------------------------------(L)
-----------------------------------------------------------------------------------
-----------------------------------------------------------------------------------
----2-5-2-----4--7--4--------------------------------(Repeat)----------------------
--3----------5------------------2-5-2---2-5-2--------------------------------------
------------------------------3-------3--------------------------------------------


--12---------------------12-10-15-10--------------------------------------------(R)
-----13-10----10-13--------------------12--10-10-12-10----10-----------------------
-----------11------------------------------------------12------12------------------
-----------------------------------------------------------------------------------
-----------------------------------------------------------------------------------
-----------------------------------------------------------------------------------

--------------------------------------------------------------------------------(L)
-----------------------------------------------------------------------------------
-----------------------------------------------------------------------------------
----2-5-2------4--7--4-------------------------------------------------------------
--3----------5-----------------2-5-2---2-5-2-------3----------3-------3-----3------
-----------------------------3-------3-----------1----------1-------1-----1--------


--------------------------------------------------------12-----14------15-------(R)
-------------------------------------------12-13-15--------------------------------
------------------------------11-12-14---------------------------------------------
----------------10-12-14-----------------------------------------------------------
--10-12-14-------------------------------------------------------------------------
-----------------------------------------------------------------------------------

www.zackkim.com

 


Backend system (LAMP) designed & maintained by Daniel Moxon